Freitag, 25. April 2008

Gitarre lernen für Anfänger - Harmonische Akkorde zum variieren

Ich habe hier ein paar Akkorde rausgesucht mit deinen Anfänger , aber auch Fortgeschrittene variieren können und wirklich wunderschöne Bgeleitungen zaubern können :

Das Grundschema ist : Am C G D
eine Variation kann man daran hängen mit : Em C G D

So viel zu den Anfängern
Am C G D Em
--------------------3------2-----------------------------
----1--------1-------------3-----------------------------
----2----------------------2-------1---------------------
----2--------2---------------------2---------------------
-------------3------2--------------2---------------------
--------------------3------------------------------------


Natürlich kann man das ganze noh mehr ausschmücken mit Hammer ons und Pull offs auf dem 3. Bund der D-Saite :

Bsp :

---------------------------------------------------------
-----1------1--^3--------1--^3------3----------------------
-----2------------------------------2--------------------
-----2------2--------------------------------------------
------------3------------2-------------------------------
-------------------------3-------------------------------

so klingt das ganze schon etwas abweckslungsreciher und gekonnter , verändert man nun noch die Anschlagstechnik und den Rhythmus kann man wunderbar verschiedene Variationen der gleichen Grundakkorde spielen und damit sein ( Laien ) Publikum verwundern.

Die Hammer ons klappen natürlich auch auf dem Em Schema und man kann sie zur Abwechslung auch auf den 3. Bund der hohen e-Saite platzieren ;-)


Hört sich gut an und macht Spass ,

Viel Spass beim Gitarre lernen für Anfänger