Sonntag, 23. Dezember 2007

Oasis - Wonderwall auf Gitarre : Akkorde und Lern video

Da Wonderwall eines meiner all-time high Lieblingslieder ist habe ich hier euch ein Video rausgesucht welches auch einem Anfänger auf der Gitarre weiterhelfen sollte.
Es ist auf englisch , erklärt aber jeden Schritt ausführlich. Wonderwall ist für Anfänger auf der Gitarre perfekt geeignet.

Ihr benötigt einen Capo ( Capotaster) der euch die Tonlage erhöht. Ihr legt ihn am 2ten Bund an , knapp über dem Bund, so wie ihr einen Barree Akkord greifen würdet.






Hier habe ich euch nochmal die Akkorde rausgeschrieben : Sie sind in Tabs geschrieben -> ab dem Capotaster ( Capo) wird gezählt. Das Lied besteht aus verschiedenen Variationen von den Akkorden G-C-D-A. Aber das ist im Video gut erklärt.


Chords ( Oasis Wonderwall )

1.Vers

.......E.............G..............D.............A
E------3-------------3--------------3-------------3-----------------------------
H------3-------------3--------------3-------------3-----------------------------
G-----------------------------------2-------------2-----------------------------
D------2------------------------------------------2-----------------------------
A------2-------------2----------------------------------------------------------
E--------------------3----------------------------------------------------------

2. Chorus

.......C.............D..............A.............A
E------3-------------3--------------3-------------3-----------------------------
H------3-------------3--------------3-------------3-----------------------------
G--------------------2--------------2-------------2-----------------------------
D------2----------------------------2-------------2-----------------------------
A------3------------------------------------------------------------------------
E-------------------------------------------------------------------------------

Viel Spass beim Gitarre spielen von Wonderwall

Den Klingelton dazu gibts hier kostenlos: Kostenloser Klingelton

Wonderwall auf Gitarre lernen