Freitag, 25. April 2008

Gitarre lernen für Anfänger - Harmonische Akkorde zum variieren

Ich habe hier ein paar Akkorde rausgesucht mit deinen Anfänger , aber auch Fortgeschrittene variieren können und wirklich wunderschöne Bgeleitungen zaubern können :

Das Grundschema ist : Am C G D
eine Variation kann man daran hängen mit : Em C G D

So viel zu den Anfängern
Am C G D Em
--------------------3------2-----------------------------
----1--------1-------------3-----------------------------
----2----------------------2-------1---------------------
----2--------2---------------------2---------------------
-------------3------2--------------2---------------------
--------------------3------------------------------------


Natürlich kann man das ganze noh mehr ausschmücken mit Hammer ons und Pull offs auf dem 3. Bund der D-Saite :

Bsp :

---------------------------------------------------------
-----1------1--^3--------1--^3------3----------------------
-----2------------------------------2--------------------
-----2------2--------------------------------------------
------------3------------2-------------------------------
-------------------------3-------------------------------

so klingt das ganze schon etwas abweckslungsreciher und gekonnter , verändert man nun noch die Anschlagstechnik und den Rhythmus kann man wunderbar verschiedene Variationen der gleichen Grundakkorde spielen und damit sein ( Laien ) Publikum verwundern.

Die Hammer ons klappen natürlich auch auf dem Em Schema und man kann sie zur Abwechslung auch auf den 3. Bund der hohen e-Saite platzieren ;-)


Hört sich gut an und macht Spass ,

Viel Spass beim Gitarre lernen für Anfänger

Freitag, 8. Februar 2008

Nothing Else Matters auf Gitarre Intro Video Unterricht Noten Chords

Habe hier ein tolles video gefunden das euch erklärt wie man das Intro von Nothing else Matters von Metallica auf Gitarre lernt. Hier ist alles mehrmals gezeigt , sehr geeignet für Anfänger. Die Gitarre bleibt hierbei normal gestimmt. Das Lied ist mit eienr E-gitarre gespielt , geht aber genausogut auch auf einer akkustischen.
Schaut es euch an und übt ein wenig dann könnt auch ihr bald Nothings esle matter auf Gitarre. Die Tabs oder Chords findet ihr bei ultimate guitar . Ich persönlich finde das Nothing Else Matters Lernvideo spitze.
Auf die Frage "Welche Effekte bei Nothing else Matters Verwenden" lautet die antwort : - Ein wenig Chorus
- Viel Hall
- Ein wenig delay ....
- evtl auch flanger





Viel Spass beim lernen von Nothing esle matters auf Gitarre

Sonntag, 23. Dezember 2007

Oasis - Wonderwall auf Gitarre : Akkorde und Lern video

Da Wonderwall eines meiner all-time high Lieblingslieder ist habe ich hier euch ein Video rausgesucht welches auch einem Anfänger auf der Gitarre weiterhelfen sollte.
Es ist auf englisch , erklärt aber jeden Schritt ausführlich. Wonderwall ist für Anfänger auf der Gitarre perfekt geeignet.

Ihr benötigt einen Capo ( Capotaster) der euch die Tonlage erhöht. Ihr legt ihn am 2ten Bund an , knapp über dem Bund, so wie ihr einen Barree Akkord greifen würdet.






Hier habe ich euch nochmal die Akkorde rausgeschrieben : Sie sind in Tabs geschrieben -> ab dem Capotaster ( Capo) wird gezählt. Das Lied besteht aus verschiedenen Variationen von den Akkorden G-C-D-A. Aber das ist im Video gut erklärt.


Chords ( Oasis Wonderwall )

1.Vers

.......E.............G..............D.............A
E------3-------------3--------------3-------------3-----------------------------
H------3-------------3--------------3-------------3-----------------------------
G-----------------------------------2-------------2-----------------------------
D------2------------------------------------------2-----------------------------
A------2-------------2----------------------------------------------------------
E--------------------3----------------------------------------------------------

2. Chorus

.......C.............D..............A.............A
E------3-------------3--------------3-------------3-----------------------------
H------3-------------3--------------3-------------3-----------------------------
G--------------------2--------------2-------------2-----------------------------
D------2----------------------------2-------------2-----------------------------
A------3------------------------------------------------------------------------
E-------------------------------------------------------------------------------

Viel Spass beim Gitarre spielen von Wonderwall

Den Klingelton dazu gibts hier kostenlos: Kostenloser Klingelton

Wonderwall auf Gitarre lernen

Donnerstag, 20. Dezember 2007

Video zum Gitarre lernen - 1/2 Lovesong von den Ärzten

Habe noch ein Video einer meiner ersten Lieder gefunden bei dem erklärt wird wie man es spielt auf Gitarre. Ein gutes Video für Anfänger an der Gitarre und toll zum üben .

Viel Spass mit 1/2 Lovesong von den Ärzten






Gitarre spielen lernen mit Video

Gitarre lernen - Ein Gitarren selbst lernen Video

Hier poste ich eine Video mit Anweisungen für Gitarrenanfänger das ihr auch selbst lernt Gitarre zu spielen

Hier das Video zum Gitarre lernen




Viel Spass beim Gitarre lernen mit dem Video

Sonntag, 2. September 2007

Keine Angst beim Gitarre lernen, jeder war bei der Gitarre mal Anfänger / Gitarrenanfänger ;-)

Hallo ihr Anfänger da draußen .. überlegt euch , auch wenns mal nicht so klappt beim üben .. jeder , auch carlos Santana oder Jimmy Hendrix waren mal Anfänger.
Wenn ihr ein Quäntchen Talent mitbringt ist es auch für euch möglich virtuos an der Gitarre zu werden , also gebt nicht auf ;-)

lg Gitarren Jan

Montag, 13. August 2007

Meine Gitarre verstimmt sich immer nachdem ich eine Saite neu draufgespannt habe !


Es ist völlig normal das sich eine frisch gespannte Saite noch verstimmt.
Dieser Effekt verschwindet nach 1-2 Tagen - erfahrene Gitarristen stimmen deshalb den Ton der neuen Saite etwas höher als gewünscht, bis sie fest sitzt ;-)

lg Gitarrist

Bild link : http://www.gitarrero-beginner.de/gitarre_grafik/eset16_hg64.jpg

Gesehen bei : www.gitarrero-beginner.de

Meine Finger tun beim Gitarre spielen weh , was kann ich tun ?

Wenn du dir zu anfangs eine Westerngitarre gekauft hast mit Stahlsaiten ist es klar das deine Fingerkuppen ziemlich weh tun . Das legt sich nach knapp 2 wochen wenn du jeden tag 1-2 std weil sich dann dicke Hornhaut auf deinen Fingerkuppen bildet , also keine Angst , die Schmerzen beim Gitarre spielen hören bald auf ;-)

Häufig gestellte Fragen bei den ersten Schritten als Gitarrist :

Ich werde nun versuchen die häufig gestelltesten Fragen beim erlernen der Gitarre zu beantworten, die oftmals auch bei meinen ersten Schritten auftraten :

- Meine Finger tun beim Gitarre spielen weh , was kann ich tun ?

- Meine Gitarre verstimmt sich immer nachdem ich eine Saite neu draufgespannt habe !

- Meine Finger sind sehr steif , habe ich kein Talent ?

- Wie fange ich am besten an Gitarre zu lernen ?

- Lerne ich das Gitarre spielen am besten in einer Gruppe oder alleine ?

dies sind wie immer links zu den passeden artikeln , viel spass ;-)
lg Gitarren Jan ^^

Sonntag, 12. August 2007

Wie fange ich am besten an Gitarre zu lernen ?

Da mein Blog ja für dieses Thema gedacht war fange ich mal an euch newbies das zu eklären ;-) : Ich würde jedem Anfänger empfehlen mit Akkorden zu beginnen da zupfen schnell langweilig und stupide werden kann .
Für die ersten Schritte die man auf dem Boden der Gitarrenwelt sich ertraut , würde ich ein Wechsel zwischen den beiden Akkorden A-mol und e-mol vorschlagen die wie folgt zu spielen sind :

am em
-------------
--1----------
--2----------
--2------2---
---------2---
--x----------

die beiden Akkorde sind sehr einfach aber geeignet für den Einstieg . Den Rhythmus kann man ja variiren ... viel spass

lg Gitarren Jan